Chords for Broken

Spread the love
1 Star2 Stars3 Stars4 Stars5 Stars (1 votes, average: 5.00 out of 5)
Loading...

Chords for Broken by Seether feat. Amy Lee are here on this page. Let’s check those out.

Chords For Broken

Tuning: D# G# C# F# A# d#

Intro and verses:
  E          C9               E          C9
e|2h3-----3--3------3---------2h3-----3--3------3--------|
B|----0------3----3---3-----3-----0------3----3---3-----3|
G|------0----0--0---------0---------0----0--0---------0--|
D|2---------------------0-----2---------------------0----|
A|-----------3---------------------------3---------------|
E|-------------------------------------------------------|
  E          C9                D                                           
e|2h3-----3--3------3----------0h2-----3p2---0h2-------3p2----|
B|----0------3----3---3-----3------3-------3-----3---3-----3--|
G|------0----0--0---------0----------2-------------2---------0|
D|2---------------------0------0-------------0----------------|
A|-----------3------------------------------------------------|
E|------------------------------------------------------------|
Play that same sequence for the intro and verses

Intro:
Em C9 | Em C9 | Em C9 | D Dsus4 D
 
Verse 1:
Em       C9          Em              C9
I wanted you to know that I love the way you laugh
Em       C9               D          Dsus4   D
I wanna hold you high and steal your pain   away
Em          C9             Em       C9     
I keep your photograph, I know it serves me well
Em      C9               D        Dsus4    D 
I wanna hold you high and steal your pain
      
Chorus 1:
            C  Em   D         C  Em   D
Because I'm broken, when I'm lonesome
            C    Em    D            C     Em 
And I don't feel right, when you're gone away
Em C9               Em C9
   You're gone away,   You don't feel me               
Em C9  D  Dsus4 D
       Anymore

Verse 2:
Em            C9      Em     C9
The worst is over now and we can breathe again
Em       C9                D       Dsus4   D        
I wanna hold you high, you steal my pain away
Em               C9            Em         C9
There's so much left to learn, and no one left to fight
Em      C9               D  Dsus4  D
I wanna hold you high and steal your pain

Chorus 2:
            C  Em  D        C Em  D
'Cause I'm bro-ken when I'm o-pen
            C    Em   D    C      Em      
And I don't feel like I am strong enough
           C    Em  D        C   Em  D
'Cause I'm bro-ken when I'm lonesome
            C    Em    D            C     Em
And I don't feel right when you're gone away

Solo:
Em C9 | Em C9 | Em C9 | D Dsus4 D
Em C9 | Em C9 | Em C9 | D

Chorus 3:
            C  Em  D        C Em  
'Cause I'm bro-ken when I'm o-pen
    D       C    Em   D    C      Em    
And I don't feel like I am strong enough
           C    Em  D        C   Em  
'Cause I'm bro-ken when I'm lonesome
    D       C    Em    D            C     Em
And I don't feel right when you're gone away

Interlude:
C | Em | D (x3)
C | Em

Chorus 4:
           C    Em  D        C   Em  
'Cause I'm bro-ken when I'm lonesome
    D       C    Em    D            C     Em
And I don't feel right when you're gone

Outro:
Em C9               Em C9
   You're gone away,   You don't feel me               
Em C9  D  Dsus4 D
       Anymore
Em

Check out the Top 101 songs to play on your acoustic guitar!

Broken Guitar Lesson (part 1part 2)

2 comments

Leave a Reply

Your email address will not be published. Required fields are marked *

This site uses Akismet to reduce spam. Learn how your comment data is processed.