1 Star2 Stars3 Stars4 Stars5 Stars (2 votes, average: 5.00 out of 5)
Loading...

“Losing My Religion” chords are displayed on this page. R.E.M. released this song in 1991 on the album “Out Of Time”. It was nominated for a Grammy Award. Let’s check out the chords:

Losing My Religion Chords

Intro:
F7 | F7 | Am | Am
F7 | F7 | Am | Am

Verse 1:
G      Am
   Oh, life is bigger
Em
   It's bigger than you
            Am
And you are not me
                        Em
The lengths that I will go to
                     Am
The distance in your eyes
Em                      Dm
   Oh no, I've said too much
         G
I set it up

Chorus 1:
                 Am
That's me in the corner
                 Em
That's me in the spotlight
            Am
Losing my religion
          Em
Trying to keep up with you
      Am
And I don't know if I can do it
Em                      Dm
   Oh no, I've said too much
                G
I haven't said enough

Bridge 1:
                           F
I thought that I heard you laughing
                 G         Am
I thought that I heard you sing
   F                     G   Am
I  think I thought I saw you try

Verse 2:
G        Am                      Em
   Every whisper of every waking hour
                   Am
I'm choosing my confessions
          Em
Trying to keep an eye of you
       Am
Like a hurt lost and blinded fool, fool
Em                      Dm
   Oh no, I've said too much
         G
I set it up

         Am
Consider this, consider this
    Em
The hint of a century
         Am
Consider this: the slip
     Em
That brought me to my knees failed
Am
What if all these fantasies
   Em
Come flailing around?
         Dm       G
Now I've said too much

Bridge 2: 
                           F
I thought that I heard you laughing
                 G         Am
I thought that I heard you sing
   F                     G   Am
I  think I thought I saw you try

Instrumental:

e|-------------5---3-----------|
B|-----3---5-----------5--3----|
G|--5--------------------------|
D|-----------------------------|
A|-----------------------------|
E|-----------------------------|

    Am                      Am
e| -12-12-12-10-10-10-10-10--8--8--8--5--5--5--5--5--|
B| ------------------------------------------------- |
G| ------------------------------------------------- |
D| ------------------------------------------------- |

    Am                       Am
e| -12-12-12-10-10-10-10-10--8--8--8--5--5--5--5--5--|
B| ------------------------------------------------- |
G| ------------------------------------------------- |
D| ------------------------------------------------- |

Am
But that was just a dream
Am
That was just a dream

Chorus 2:
                 Am
That's me in the corner
                 Em
That's me in the spotlight
            Am
Losing my religion
          Em
Trying to keep up with you
      Am
And I don't know if I can do it
Em                      Dm
   Oh no, I've said too much
                G
I haven't said enough

Bridge 3:
                           F
I thought that I heard you laughing
                 G         Am
I thought that I heard you sing
   F                     G   Am
I  think I thought I saw you try
    F                    G
But that was just a dream
Am
Try, cry,   why,   try
F                         G      Am            G
That was just a dream,    just a dream, just a dream, dream

Outro:
e|-------------5---3-----------|
B|-----3---5-----------5--3----|
G|--5--------------------------|
D|-----------------------------|
A|-----------------------------|
E|-----------------------------|
                            7x
e| -12-12-12-12-12-12-12-12-:|--12-10-------10----------------|
B|:-------------------------:|--------13-10----13-10-13---10--|
G| -------------------------:|--------------------------------|
D| -------------------------:|--------------------------------|
A|:-------------------------:|--------------------------------|
E| -------------------------:|--------------------------------|

Check out the Top 101 songs to play on your acoustic guitar!

Losing My Religion Guitar Lesson