1 Star2 Stars3 Stars4 Stars5 Stars (2 votes, average: 5.00 out of 5)
Loading...

“Wanted Dead Or Alive” chords are presented on this page. The song was released by Bon Jovi on the album “Slippery When Wet” in 1986. Let’s check out the chords:

Wanted Dead Or Alive Chords

Intro:
e|------13-------12-------10------8------5------3-------1--:| (2x)
B|---------------------------------------------------------:|
G|----14--14---12--12---10--10---9--9---5--5---4--4--4/2---:|
D|--0--------0--------0--------0------0------0-------------:|
A|---------------------------------------------------------:|
E|---------------------------------------------------------:|

e|--------------0--------------------0--------------------0--------|
B|----------------3-3------------------3-3------------------3-3----|
G|--------------------2--------------------2--------------------2--|
D|--------0-3-0----------------0-3-0----------------0-3-0----------|
A|--0-0-3----------------0-0-3----------------0-0-3----------------|
E|-----------------------------------------------------------------|

           F  D
e|---------1-----------|
B|---------1--3--------|
G|---------2--2--------|
D|---------3--0--------|
A|--0-0-3--3--0--------|
E|---------1-----------|

Verse 1:
     D           Dsus4 Dsus2 D
It's all the same                
 Cadd9               G
Only the names will change
Cadd9     G              F     C/G    D
Everyday, it seems we're wastin' away
     D     Dsus4 Dsus2 D
Another place                            
          Cadd9           G
Where the faces are so cold
   Cadd9     G
I  drive all night
        F   C/G  D
Just to get back home

Chorus 1:
      Cadd9   G       F     D  Dsus2   D
I'm a cowboy,   on a steel horse   I   ride                      
    Cadd9   G
I'm wanted 
C    D  F D (only notes - it's the same for every "Dead or alive")
Dead or alive
Cadd9   G
Wanted
C    D  F D (only notes)
Dead or alive
      
Instrumental:
(Intro again without the second part)

Verse 2:
    D            Dsus4 Dsus2 D
Sometimes I sleep                                      
  Cadd9                G
Sometimes it's not for days
    Cadd9         G      F   C/G             D
The people I meet always go their separate ways
D                          Dsus4  Dsus2  D
Sometimes you tell the day                               
        Cadd9          G
By the bottle that you drink
        Cadd9               G   F       C/G   D
And times when you're all alone all you do is think

Chorus 2:
      Cadd9   G       F     D Dsus2 D
I'm a cowboy,   on a steel horse I  ride                      
     Cadd9  G       C    D  F D
I'm wanted (wanted) dead or alive    
Cadd9   G       C    D  F D
Wanted (wanted) dead or alive        

Instrumental:
(Intro again without the second part)
Oh and I ride

Solo:
D | D | Cadd9 | G
Cadd9 | G | F | D
(2x)

Chorus 3:
        Cadd9  G       F     D  Dsus2  D
I'm a cowboy,   on a steel horse   I   ride                      
     Cadd9  G   C    D  F D
I'm wanted      dead or alive    

Verse 3:
D                  D Dsus4  Dsus2  D
I walk these streets,                           
        Cadd9               G
A loaded six string on my back
        Cadd9   G        F   C/G             D
I play for keeps, 'cause I might not make it back
D               D Dsus4 Dsus2   D
I been everywhere,    (oh yeah)                           
        Cadd9      G
Still I'm standing tall
        Cadd9       G
I've seen a million faces
F    C/G            D
And I've rocked them all

Chorus 4:
           Cadd9   G     F          D  Dsus2 D
'Cuz I'm a cowboy, on a steel horse  I ride                       
    Cadd9  G        C    D  F D
I'm wanted (wanted) dead or alive          

Outro:
e|------13-------12-------10------8------5------3-------1--| 
B|---------------------------------------------------------|
G|----14--14---12--12---10--10---9--9---5--5---4--4--4/2---|
D|--0--------0--------0--------0------0------0-------------|
A|---------------------------------------------------------|
E|---------------------------------------------------------|
(gradually slowing down)                                D 
e|------13-------12-------10------8------5------3-------2--| 
B|------------------------------------------------------3--|
G|----14--14---12--12---10--10---9--9---5--5---4--4-----2--|
D|--0--------0--------0--------0------0------0----------0--|
A|---------------------------------------------------------|
E|---------------------------------------------------------|

Check out the Top 101 songs to play on your acoustic guitar!

Wanted Dead Or Alive Guitar Lesson